Give Kudos?
Are you sure you want to give kudos to Priebe?

Add To Songbook?
Are you sure you want to add this song to your songbook?


2,870 bands | 36,242 songs
Search: Register FREE! | Login
Browse Songs:
Browse Bands:
Tool Panel
Discuss This Song

1 2 3 4 5



Martina McBride - Concrete Angel 2 (Intro)
Album: Martina McBride - Greatest Hits (2001)
Submitter: Priebe (0) on 3/15/03
Month Views: 14 | Total Views: 3,607
Moderator: Ray Terry | Report This Song?
Song Tools

Comment

Songbook

Kudos

Show Chords

Print

E-----6--4----6--4-----4--6/8--9--8--4-----------
B---4-------4--------4---------------------------
G------------------------------------------------
D------------------------------------------------ 
A------------------------------------------------
E------------------------------------------------



E-----6--4----6--4-------------------------------
B---4-------4--------4--1h2----------------------
G------------------------------------------------
D------------------------------------------------ 
A------------------------------------------------
E------------------------------------------------


 Comments (click here to add a non-facebook comment)
Home | FAQs | Privacy | Terms | Advertise | Contact
Top 100 Tab Sites