Give Kudos?
Are you sure you want to give kudos to JoeWallace?

Add To Songbook?
Are you sure you want to add this song to your songbook?


2,870 bands | 36,241 songs
Search: Register FREE! | Login
Browse Songs:
Browse Bands:
Tool Panel
Discuss This Song

1 2 3 4 5



Martina McBride - Concrete Angel (Intro)
Album: Martina McBride - Greatest Hits (2001)
Submitter: JoeWallace (9) on 2/19/03 7 comments
Month Views: 12 | Total Views: 6,142
Moderator: Ray Terry | Report This Song?
Song Tools

Comment

Songbook

Kudos

Show Chords

Print

Concrete Angel
Martina McBride


E-----6--4----6--4-----4--6--8h9--8--4-----------
B---4-------4--------4---------------------------
G------------------------------------------------
D------------------------------------------------ 
A------------------------------------------------
E------------------------------------------------



E-----6--4----6--4-------------------------------
B---4-------4--------4--1--1h2-------------------
G------------------------------------------------
D------------------------------------------------ 
A------------------------------------------------
E------------------------------------------------





Joe at countrytabs.com
 Comments (click here to add a non-facebook comment)
hey Joe...I played the tab and surprise I learned it in a few
minutes..It's really good and it sounds right. Good Job! Oh, and
thank you!! ;-)
-Cowgirl_Curtis | 2/23/2003
Great job bro but there should be a slide
between the 6 and the 8. Other that that it's perfect!
Great job!
-Priebe | 3/15/2003
I don't think its neccesary, but either way sounds fine.
-JoeWallace | 3/15/2003
I think Joes did a good Job on it...It sounds just like the part!
-Cowgirl_Curtis | 5/20/2003
great job...soudsn great and so easy to play
-sleepy_girl | 6/3/2005
play the 3rd string fretted at 6 after the the third note, and than its perfec tanks;)
-kenny89 | 7/10/2005
great job
-brandtfan | 9/24/2005
Home | FAQs | Privacy | Terms | Advertise | Contact
Top 100 Tab Sites