Give Kudos?
Are you sure you want to give kudos to mammy?

Add To Songbook?
Are you sure you want to add this song to your songbook?


2,732 bands | 35,223 songs
Search: Register FREE! | Login
Browse Songs:
Browse Bands:
Tool Panel
Discuss This Song

1 2 3 4 5



Mike McClure - In My Ears (Lead)
Album: Twelve Pieces (2002)
Submitter: mammy (2) on 5/30/03 4 comments
Month Views: 1 | Total Views: 4,806
Moderator: aggiekelton | Report This Song?
Song Tools

Comment

Songbook

Kudos

Show Chords

Print

In My Ears - lead
by Mike McClure w/Cody Canada


Intro
e|-----------------------------|------------------------|--12-------------------|e
B|---13/14\13--11----------11--|------------------------|--13--11h13-11---------|B
G|------------------12-12b-----|--0-3/5\3p0--0-3/5\3p0--|---------------8h11-8--|G
D|-----------------------------|------------------------|-----------------------|D
A|-----------------------------|------------------------|-----------------------|A
E|-----------------------------|------------------------|-----------------------|E
     
                                                                         
1st lead solo (acoustic guitar)
e|----------------------|------------------------------|----------------------|e
B|----------------------|------------------------------|----------------------|B
G|-----0-----0-2---4-7--|--7-5-4--5-4-2-----4-2-0-2-0--|------0-2p0-4-2-2p0---|G
D|-0h2---0h2-----0------|---------------0h2------------|--0h2-----------------|D
A|----------------------|------------------------------|----------------------|A
E|----------------------|------------------------------|----------------------|E
                                                                              

e|---------------------|e
B|--------0---0--------|B
G|--2/4-4---4---4\2-0--|G
D|---------------------|D
A|---------------------|A
E|---------------------|E
                               
                                               
2nd/final lead solo (electric guitar)
e|-------------------------|--12b---------------------15--|
B|--13/14\13-11--------11--|--13b-13-11----13--13h14x7----|
G|--------------12-12b-----|------------12----------------|
D|-------------------------|------------------------------|
A|-------------------------|------------------------------|
E|-------------------------|------------------------------|        

SYMBOLS
/  =  slide up
\  =  slide down
b  =  bend
p  =  pulloff
h  =  hammer
x7 = hammer 7 times really fast

enjoy :)
mammycc_05 at yahoo.com
 Comments (click here to add a non-facebook comment)
Good job mammy!!! This is a great song.
-texasisalive | 6/28/2003
I love you. I'm so glad I found this solo. This is like the best song. I figured out a lot of it but not quite all. This is a huge help! Thanks
-rockonCCR | 7/4/2003
I love you. I'm so glad I found this solo. This is like the best song. I figured out a lot of it but not quite all. This is a huge help! Thanks
-rockonCCR | 7/4/2003
The intro is pretty off I must say. First of all it's bends and not slides. And then the part down at the bottom of the fretboard is incorrect as well.

It should be more like this at the bottom.
e------------------------
b------------------------
g-3p0-3-0-3-5p3-0-3p0-3~-
d------------------------
a------------------------
E------------------------

And there are palm mutes
e-x-x-x-x-x-x-
b-x-x-x-x-x-x-
g-x-x-x-x-x-x-
d-------------
a-------------
E-------------

then:
e-12~---------------------
b-13~---13p11-11-13p11----
g----------------------12-
d-------------------------
a-------------------------
E-------------------------
-pickerfromWACO | 1/9/2005
Home | FAQs | Privacy | Terms | Advertise | Contact
Top 100 Tab Sites