Give Kudos?
Are you sure you want to give kudos to 6stringjohny?

Add To Songbook?
Are you sure you want to add this song to your songbook?


2,734 bands | 35,239 songs
Search: Register FREE! | Login
Browse Songs:
Browse Bands:
Tool Panel
Discuss This Song

1 2 3 4 5



Montgomery Gentry - Hillbilly Shoes (Intro)
Album: Tattoos & Scars (1999)
Submitter: 6stringjohny (0) on 5/18/02 5 comments
Month Views: 12 | Total Views: 9,282
Moderator: dantheman85x | Report This Song?
Song Tools

Comment

Songbook

Kudos

Show Chords

Print

Hillbilly Shoes
Intro
Drop D Tunning

----------------------------------------------------------
----------------------------------------------------------
----------------------------------------------------------
-----O-O-3pO----------O-O-3pO----------O-O-3pO------------
-3h5---------5-5--3h5---------5-5--3h5---------5-5-3-O----
-------------------------------------------------------3-O


------------------------------------------------------------
------------------------------------------------------------
------------------------------------------------------------
-----O-O-3pO----------5-3pO----------O-O-3pO----------------
-3h5---------5-5--3h5-------5-5--3h5---------5-5--3-O-------
------------------------------------------------------3-O---
 Comments (click here to add a non-facebook comment)
VERY nice.
-yinielin | 2/8/2003
One thing instead of the 5th fret on A string play it open on D. Much easier sounds better too imo.
-yinielin | 5/17/2003
On the CD the play the second half of the intro (when the electric guitar and fiddle join in) like this ("/" = slide up, ~~=bend, p=pull off):

D-----0-0-3-0-0-0----503000---003000---------
A--3/5------------3/5------3/5------3p0------
E--------------------------------------3~~0--

Note: I couldn't space out the second two parts of the riff because I ran out of room, and you can interchange the open notes on the "D" string with "5's" on the A string as you see fit, but that's verbatim off the CD, I just sat down and finally figured it out about 20 minutes ago. Great song, too. Nice job on the rest.
-Smoothie7745 | 9/12/2003
tabs looks ok but on the 5th fret A string play it on the open d. I am friends with the guy who wrote this song (Mike Geiger) and he showed me the intro the other day and other than that one part the tabs looks good.
-carterstrat | 10/29/2003
i like smoothies better
-kylekertis | 11/12/2003
Home | FAQs | Privacy | Terms | Advertise | Contact
Top 100 Tab Sites