Give Kudos?
Are you sure you want to give kudos to yinielin?

Add To Songbook?
Are you sure you want to add this song to your songbook?


2,734 bands | 35,239 songs
Search: Register FREE! | Login
Browse Songs:
Browse Bands:
Tool Panel
Discuss This Song

1 2 3 4 5



Montgomery Gentry - Hillybilly Shoes(2) (Lead)
Album: Tattoos & Scars (1999)
Submitter: yinielin (2) on 6/11/03
Month Views: 5 | Total Views: 4,160
Moderator: dantheman85x | Report This Song?
Song Tools

Comment

Songbook

Kudos

Show Chords

Print

By:Yinielin
Montgomery Gentry, HillBilly Shoes

|  bp=Bend and pop the string |
|  h=hammer on                |
|  b=bend                     |
|  p=pull off                 |


E-----------------------------------------------------------
B-----------------------------------------------------------
G-----------------------------------------------------------
D------0-0-3bp-0-0------0-0-3bp-0-0------0-0-3bp-0---------0
A--3h5--------------3h5--------------3h5-----------3bp------
E-------------------------------------------------------1b--

E----------------------------------------------------------
B----------------------------------------------------------
G----------------------------------------------------------
D------0-0-3bp-0-0-----5-3bp-0-0------0-0-3bp-0----------0-
A--3h5-------------3h5------------3h5-----------3bp--------
E----------------------------------------------------1b----


E--------------------------------------------
B--------------------------------------------
G--------------------------------------------
D-5h7-5------5h7-5----5h7-5----------------0-
A-------8p5--------8---------8p5-0-3bp-------
E---------------------------------------1b---

E--------------------------------------------
B--------------------------------------------
G--------------------------------------------
D-5h7-5------5h7-5----5h7-5----------------0-
A-------8p5--------8---------8p5-0-3bp-------
E---------------------------------------1b---
 Comments (click here to add a non-facebook comment)
Home | FAQs | Privacy | Terms | Advertise | Contact
Top 100 Tab Sites