Give Kudos?
Are you sure you want to give kudos to sweethomealabam?

Add To Songbook?
Are you sure you want to add this song to your songbook?


2,751 bands | 35,343 songs
Search: Register FREE! | Login
Browse Songs:
Browse Bands:
Tool Panel
Discuss This Song

1 2 3 4 5



Montgomery Gentry - Lonesome(solo) (Solo)
Album: My Town (2001)
Submitter: sweethomealabam (2) on 12/15/05
Month Views: 7 | Total Views: 2,196
Moderator: dantheman85x | Report This Song?
Song Tools

Comment

Songbook

Kudos

Show Chords

Print

Not my favorite song but
it's a pretty cool solo!
Enjoy!

============================================================
b=bend                    pbr=pre-bend & release
/=slide                   ~=vibrato
p=pull-off                h=hammer-on
br=bend & release         
============================================================

Guitarfan12 at aol.com

E------12-----------------------15--------------------17----
B----15-------------------15-17b--17pbr-15--15~~--------17--
G-16b----16pbr-14-14-14/16----------------16-------16b------
D-----------------------------------------------------------
A-----------------------------------------------------------
E-----------------------------------------------------------

E---------------------------------7-------------------------
B--------------------7-10-10br-7---10-7---------8-7---------
G-16p14h16p14-16--14------------9b-----9b-9-9pbr---9-7-9~~~~
D---------------16------------------------------------------
A-----------------------------------------------------------
E-----------------------------------------------------------

PLEASE COMMENT AND RATE
 Comments (click here to add a non-facebook comment)
Home | FAQs | Privacy | Terms | Advertise | Contact
Top 100 Tab Sites