Give Kudos?
Are you sure you want to give kudos to yinielin?

Add To Songbook?
Are you sure you want to add this song to your songbook?


2,751 bands | 35,343 songs
Search: Register FREE! | Login
Browse Songs:
Browse Bands:
Tool Panel
Discuss This Song

1 2 3 4 5



Montgomery Gentry - My Town (Lead)
Album: My Town (2001)
Submitter: yinielin (1) on 5/10/03
Month Views: 6 | Total Views: 4,174
Moderator: dantheman85x | Report This Song?
Song Tools

Comment

Songbook

Kudos

Show Chords

Print

By:Yinielin
My Town, Montgomery Gentry

           |b=bend                h=hammer-on|               
           |                                 |
           |bh=bend&hold          p=pull-off |
           |                                 |
           |bhr=bend&hold release            |




E-------13-13bhr-13b--10-10----------------------------
B---------------------------10----10h12----10----------
D-14-14------------------------11-------11----11-------
G------------------------------------------------------
A------------------------------------------------------
E------------------------------------------------------

E----------------13bhr-13b----------------14----14-17--
B---------------------------15-15---15-15----15--------
D--9\7-----7-7-----------------------------------------
G------7h9---------------------------------------------
A------------------------------------------------------
E------------------------------------------------------

E--15h17p15-14-----------------------17-21-21bh--------
B---------------15----------15h17h19-------------------
D------------------14h16h18----------------------------
G------------------------------------------------------
A------------------------------------------------------
E------------------------------------------------------
 Comments (click here to add a non-facebook comment)
Home | FAQs | Privacy | Terms | Advertise | Contact
Top 100 Tab Sites