Give Kudos?
Are you sure you want to give kudos to cmtboy?

Add To Songbook?
Are you sure you want to add this song to your songbook?


2,751 bands | 35,343 songs
Search: Register FREE! | Login
Browse Songs:
Browse Bands:
Tool Panel
Discuss This Song

1 2 3 4 5



Montgomery Gentry - My Town (Solo)
Album: My Town (2001)
Submitter: cmtboy (1) on 2/23/03 3 comments
Month Views: 5 | Total Views: 5,039
Sound Byte: Listen
Moderator: dantheman85x | Report This Song?
Song Tools

Comment

Songbook

Kudos

Show Chords

Print

My Town by Montgomery Gentry

Solo

*This is an extremely fast and somewhat complicated solo, and the run at the end 
is VERY fast, so you better get those fingers warmed up before trying this one.
I don't claim perfection on this tab, but it's as close as I could get without 
going crazy.  Enjoy!

       *-------------------------------------------------------*
         b=bend                               h=hammer on
         p=pull off                           bh=bend and hold
         bb=double bend
       *-------------------------------------------------------*


Play this with a good amount of distortion.

E-------13bb--13b-10-10-----------------------------------------|
B-10-10-----------------10----10h12----10-----------------------|
G--------------------------11-------11----9h11p9-7-------7-7~---|
D--------------------------------------------------9-7/9--------|
A---------------------------------------------------------------|
E---------------------------------------------------------------|



E-13b-13b-------------14----14-17-17-15-17-14h15p14-------------|
B---------15-15-15-15----15-------------------------15----------|
G---------------------------------------------------------------|
D---------------------------------------------------------------|
A---------------------------------------------------------------|
E---------------------------------------------------------------|



E--------------------17h19h21-21bh------------------------------|
B----------15h17h19---------------------------------------------|
G-14h16h18------------------------------------------------------|
D---------------------------------------------------------------|
A---------------------------------------------------------------|
E---------------------------------------------------------------|
 Comments (click here to add a non-facebook comment)
Good.
-yinielin | 4/11/2003
Thanks.....I know it's not
exact, but like I said above it's as close
as I could get. Maybe Axe or someone can
take a look and help me out........
-cmtboy | 4/15/2003
Sounds alright to me...a few notes out, but nothing sounds bad... :)
-axehappy | 4/19/2003
Home | FAQs | Privacy | Terms | Advertise | Contact
Top 100 Tab Sites