Give Kudos?
Are you sure you want to give kudos to sweethomealabam?

Add To Songbook?
Are you sure you want to add this song to your songbook?


2,751 bands | 35,343 songs
Search: Register FREE! | Login
Browse Songs:
Browse Bands:
Tool Panel
Discuss This Song

1 2 3 4 5



Montgomery Gentry - Scarecrow (Solo)
Album: My Town (2001)
Submitter: sweethomealabam (2) on 6/5/05
Month Views: 11 | Total Views: 2,469
Moderator: dantheman85x | Report This Song?
Song Tools

Comment

Songbook

Kudos

Show Chords

Print

O.K. I did the best i could to get figure out the tabs for this song.
 Some of the things are played really fast and are pretty hard to hear. 
I don't call it perfection but I will say that it is 90% or more right.

b=bend
p=pull-off
r=release bend
sb=slowly bend the string
brp=bend, then release, then pull off
h=hammer-on
/=slide

E---7sb-9-10-12-9-5-7p5----17-------------------------------
B-----------------------15b--15r-13--15b-15b-15r-13--13-15b-
G--------------------------------------------------14-------
D-----------------------------------------------------------
A-----------------------------------------------------------
E-----------------------------------------------------------

E-----------------------------------------------------------
B-15r-13----------------------------------------------------
G--------7b-7b-7b-7b-7b-7b-7brp6p5--------------------------
D---------------------------------7p5p4-0-5b-------5-7-7b-7r
A-----------------------------------------------------------
E--------------------------------------------4p2h4----------
                                      
E-----------------------------------------------------------
B-----------------------------------------------------------
G-5-5-7p5-5h7p5-5--14-14-12-14-14/--14-14-12-14-14----------
D--7-----7-----7--------------------------------------------
A-----------------------------------------------------------
E-----------------------------------------------------------

Please comment with any corrections or any other junk.
 Comments (click here to add a non-facebook comment)
Home | FAQs | Privacy | Terms | Advertise | Contact
Top 100 Tab Sites