Give Kudos?
Are you sure you want to give kudos to geetar81?

Add To Songbook?
Are you sure you want to add this song to your songbook?


2,831 bands | 36,009 songs
Search: Register FREE! | Login
Browse Songs:
Browse Bands:
Tool Panel
Discuss This Song

1 2 3 4 5



Montgomery Gentry - She Couldn't Change Me (Solo)
Album: Carrying On (2001)
Submitter: geetar81 (3) on 7/29/02
Month Views: 15 | Total Views: 4,510
Moderator: dantheman85x | Report This Song?
Song Tools

Comment

Songbook

Kudos

Show Chords

Print

E--8--8--8--8--8--8--8--8--8--8--8/8-------
B-10-10-10-10-10-10-10-10-10-10-10/8-10/8--
G------------------------------------------
D------------------------------------------
A------------------------------------------
E------------------------------------------

E-8/10-12/13---15/17-17-17/15-15-15/17-17-17/15--
B------------------------------------------------
G------------------------------------------------
D------------------------------------------------
A------------------------------------------------
E------------------------------------------------

E-0-10/8-------------------------|
B--------10/8-6------------------|
G---------------7b-5----5-5-1-2--|
D-------------------5/7----------|
A--------------------------------|
E--------------------------------|
 Comments (click here to add a non-facebook comment)
Home | FAQs | Privacy | Terms | Advertise | Contact
Top 100 Tab Sites