Give Kudos?
Are you sure you want to give kudos to jerodhowe?

Add To Songbook?
Are you sure you want to add this song to your songbook?


2,960 bands | 36,664 songs
Search: Register FREE! | Login
Browse Songs:
Browse Bands:
Tool Panel
Discuss This Song

1 2 3 4 5



Neal McCoy - Got Mud (Tab)
Album: That's Life (2005)
Submitter: jerodhowe (0) on 9/20/05
Month Views: 167 | Total Views: 3,404
Moderator: dantheman85x | Report This Song?
Song Tools

Comment

Songbook

Kudos

Show Chords

Print

.submitted by jerod howe of rustik roots
neil mccoy:Got Mud
* bend
play bar chords    $ means 4 times
^ means 8 times     bass notes are on top

   E  A  A  D  D  A  A  G     E  A  A  D  D  A  A  G         
E|--------------------------|-------------------------
B|--------------------------|-------------------------
G|----------7--7------------|----------7--7-----------
D|-2--7--7--7--7--7--7--5*--|-2--7--7--7--7--7--7--5*-
A|-2--7--7--5--5--7--7--5*--|-2--7--7--5--5--7--7--5*-
e|----5--5--------5--5--3*--|-0--5--5--------5--5--3*-

   E  A  E
E|-------------------------------
B|-------------------------------
G|-------------------------------
D|-2^-7--2^----------------------
A|-2--7--2-----------------------
e|-0--5--0-----------------------


   A  G  E           F#
E|-------------------------------
B|-------------------------------
G|-------------------------------
D|-7--5--2$-times-3--4-----------
A|-7--5--2-----------4-----------
e|-5--3--0-----------2-----------



   E  A  A  D  D  A  A  G     E  A  A  D  D  A  A  G   A
E|--------------------------|---------------------------
B|--------------------------|---------------------------
G|----------7--7------------|----------7--7-------------
D|-2--7--7--7--7--7--7--5*--|-2--7--7--7--7--7--7--5^--7^
A|-2--7--7--5--5--7--7--5*--|-2--7--7--5--5--7--7--5---7
e|----5--5--------5--5--3*--|-0--5--5--------5--5--3---5


well thats about it youll have have to figure out the timing on 
your own because i dont have the cd.
 Comments (click here to add a non-facebook comment)
Home | FAQs | Privacy | Terms | Advertise | Contact
Top 100 Tab Sites