Give Kudos?
Are you sure you want to give kudos to Deleted Member?

Add To Songbook?
Are you sure you want to add this song to your songbook?


2,426 bands | 32,427 songs
Search: Register FREE! | Login
Browse Songs:
Browse Bands:
Tool Panel
Discuss This Song

1 2 3 4 5





Perfect Stranger - You Have The Right To Remain Silent (Chord)
Submitter: Deleted Member (0) on 9/21/01 6 comments
Month Views: 260 | Total Views: 7,421
Help! We need a moderator for this artist. | Report This Song?
Song Tools

Comment

Songbook

Kudos

Show Chords

Print

Title: You Have The Right To Remain Silent

Artists: Perfect Stranger

Album: You Have The Right To Remain Silent

Songwriters: Cal Sweat and Brenda Sweat



Intro Riff

E--------------------------------------------------
B---0-1-3-3--0-1-3-1-0-0-1--5-7-8-7-5--------------
G-0-----------------------------------7------------
D---------------------------------------7-5-4-7-5--
A--------------------------------------------------
E--------------------------------------------------

G                                       Am
Can I have this dance, my your looking pretty

                    D                       G
Is there something wrong, did he leave you hurting

                Am                          D
I don't mean to pry, but that tear in your eye

          G   Am
Gave you away

        D             G                   Am
If you don't want to talk, we'll keep it quiet

                 D                            G
But sometimes a heartache, hurt worse if you hide it

                   Em               Am
I think there's a chance, one slow dance

                G
Might ease the pain

                              Am
You have the right to remain silent

                   D                  G    
Anything that you say, as I hold you against me

      Am           D                 G  Am
Will forever be a secret between us two

      D            G                   Am
I've been wanting you, but you didn't know it

                   D                  Em
And now that he's gone at last I can show it

                  Am                         D
If your heart is tired for the rest of your life

              G
Lay your love on me

    Am            D         G
So many times my eyes have held you

  Am                D            G
Tonight please give my arms that chance

   Em                  Bm         C
If you don't feel the need for conversation

Am                  C                    D    
We'll just let our hearts talk while we dance

(Key change)

E             A               Bm
You have the right to remain silent

                   E                  A
Anything that you say, as I hold you against me

       Bm           E                 A  Bm
Will forever be a secret, between us two

      E            A                   Bm
I've been wanting you, but you didn't know it

                   E                 F#M
And now that he's gone at last I can show it

                  Bm                          E
If your heart is tired, for the rest of your life

                 A
Lay your love on me

                  Bm                          E
If your heart is tired, for the rest of your life

                 A
Lay your love on me


Outro Riff

E-------------------------------0--
B-2-3-5-3-2-3/5-3--2-0---0------2--
G----------------------2---2-1--2--
D-------------------------------2--
A-------------------------------0--
E----------------------------------

Tab notation: /=slide



 
 Comments (click here to add a non-facebook comment)
I need to make a correction to my tab. The outro I submitted on this tab originally was close, but not exact. After listening to the song a few more times I figured out the correct way to play it as shown below.

e---------------------------------------0-
B-2-3-3/5-3-2-3/5-3--2-0--------2-0-----2-
G------------------------2----2-----1---2-
D---------------------------2---------2-2-
A---------------------------------------0-
E-----------------------------------------

-Lucas | 2/25/2004

Very well done mate..just wanted to add a little hammer/pull in your intro
Great tab for a great song!

E------------------------------------------------------
B---0-1-3-3--0-1-3-1-0-0-1--5-7-8-7h8p7-5--------------
G-0---------------------------------------7------------
D-------------------------------------------7-5-4-7-5--
A------------------------------------------------------
E------------------------------------------------------

personaly I prefer to play the last part around normal D-shape,
but your way's just as good
-rune | 4/13/2004
Thanks Rune! You have a great ear and your
correction to my intro is right on. I really enjoy your tabs. Keep up the great work!!!
-Lucas | 4/14/2004
Excellent job, Lucas!
-heyitskane | 7/26/2004
Perfect! I played it while listening to the CD and it sounded perfect! Thanx Lucas & rune
-jaredjunek | 2/25/2005
hey lucas and rune i don't know how to play that on my guitar you think yall can come up with a full song tab if you can you can email it to me at softballfruj@aim.com
thanks
-fruj | 9/25/2005
Home | FAQs | Privacy | Terms | Advertise | Contact
Top 100 Tab Sites