Give Kudos?
Are you sure you want to give kudos to 3fan4life?

Add To Songbook?
Are you sure you want to add this song to your songbook?


3,285 bands | 38,023 songs
Search: Register FREE! | Login
Browse Songs:
Browse Bands:
Tool Panel
Discuss This Song

1 2 3 4 5



Perfect Stranger - You Have The Right To Remain Silent (Intro)
Submitter: 3fan4life (0) on 4/1/04
Month Views: 517 | Total Views: 5,643
Moderator: silver24ado | Report This Song?
Song Tools

Comment

Songbook

Kudos

Show Chords

Print

This is still one of my favorite songs ever.
This is how I play it with the cd version. Listen to the song for the timing. 
The G chord at the end might not be in there but it sounds good. This is my 
first shot at tabbing so please add or take out anything that might be wrong. 
Thanks.



-------------------------------------
-----0-1-1h3-3------3-3-3-1-0-0h1----
---0---------------------------------
-------------------------------------
-------------------------------------
-------------------------------------


---0-2-2h3-2-0-----------------------
----------------3-1-0----------------
----------------------2-0------------
-------------------------------------
-------------------------------------
-------------------------------------

    Harmonics
---------------------------3----------
---------------------------0----------
-----7--7------5-----------0----------
---7--7--7---5-------------0----------
---------------------------2----------
---------------------------3----------
 Comments (click here to add a non-facebook comment)
Home | FAQs | Privacy | Terms | Advertise | Contact
Top 100 Tab Sites