Give Kudos?
Are you sure you want to give kudos to journey1?

Add To Songbook?
Are you sure you want to add this song to your songbook?


2,747 bands | 35,276 songs
Search: Register FREE! | Login
Browse Songs:
Browse Bands:
Tool Panel
Discuss This Song

1 2 3 4 5



Phil Vassar - American Child (Intro)
Album: American Child (2002)
Submitter: journey1 (0) on 8/8/02 2 comments
Month Views: 3 | Total Views: 3,934
Moderator: dantheman85x | Report This Song?
Song Tools

Comment

Songbook

Kudos

Show Chords

Print

American Child by Phil Vassar

|--14-12--14-15--14-9------14-12--14-15---14-9-17------
|--------------------9---------------------------------
|------------------------------------------------------
|------------------------------------------------------
|------------------------------------------------------
|------------------------------------------------------
 Comments (click here to add a non-facebook comment)
|-14-12--14-15--14--------14-12--14-15---14----17--1717-
|------------------15---~-------------------15----15-15--
|----------------------14--------------------------------
|--------------------------------------------------------
|--------------------------------------------------------
|--------------------------------------------------------
(really an mandolin)
-yoyo2004 | 12/21/2002
Yeah you're right. I typed that wrong. Thanks for correcting.
-journey1 | 12/21/2002
Home | FAQs | Privacy | Terms | Advertise | Contact
Top 100 Tab Sites