Give Kudos?
Are you sure you want to give kudos to caddy_45?

Add To Songbook?
Are you sure you want to add this song to your songbook?


2,634 bands | 34,497 songs
Search: Register FREE! | Login
Browse Songs:
Browse Bands:
Tool Panel
Discuss This Song

1 2 3 4 5





Shooter Jennings - The Letter (Intro)
Album: PUT THE O BACK IN COUNTRY (2005)
Submitter: caddy_45 (0) on 10/5/05 1 comment
Month Views: 14 | Total Views: 3,535
Moderator: Buckeem | Report This Song?
Song Tools

Comment

Songbook

Kudos

Show Chords

Print

First timer here, but this is how i think it goes.....

E--------------------------------5--8----------------------
B-8b9b8---5---8b9b8--------8b9b8-------8b9b8---6------------
G-------5-----------5-7----------------------5--------------
D-----------------------------------------------------------
A-----------------------------------------------------------
E-----------------------------------------------------------

E-----------------------------------------------------------
B-8b9b8---5---8b9b8-----------------------------------------
G-------5-----------5--7---7b8-7b8-7b8-7-5-----------------
D-------------------------------------------7b8b7--5--------
A----------------------------------------------------7--3---
E-----------------------------------------------------------

E--------------------------|
B--------------------------|
G--------------------------|
D---------5----------------|
A-----3h5------------------|
E--------------------------|

little solo after "when she gets home she'll surely see..."
->I'm not completely sure about this, the tone doesn't sound right, 
I think that's b/c I play on a strat, and shooter plays on a tele. 
but I could be wrong.-
E--------------------------|
B--------------------------|
G-7b8b7-5---5--------------|
D---------7---7b8b7-5------|
A--------------------------|
E--------------------------|






 Comments (click here to add a non-facebook comment)
SHOOTER JENNINGS IS THE REAL DEAL!!!!!! KENNY CHESNEY AND RASCAL FLATTS DONT EVEN DESERVE TO BE CALLED ARTIST!!!!
-traceadkins | 11/15/2005
Home | FAQs | Privacy | Terms | Advertise | Contact
Top 100 Tab Sites